ISO-10303-21;
HEADER;
/*Generated by software containing ST-Developer
 * from STEP Tools, Inc. (www.steptools.com) 
 */
/*OPTION: using custom renumber hook */
/*description */
/*implementation_level */
FILE_DESCRIPTION(('STEP AP242 Edition 2','STEP AP242 Edition 2''CAx-IF Rec.Pracs.---Representation and Presentation of Product Manufa
cturing Information (PMI)---4.0---2014-10-13','STEP AP242 Edition 2''CAx-IF Rec.Pracs.---Representation and Presentation of Product Manufa
cturing Information (PMI)---4.0---2014-10-13''CAx-IF Rec.Pracs.---3D Tessellated Geometry---0.4---2014-09-14','STEP AP242 Edition 2''CAx-IF Rec.Pracs.---Representation and Presentation of Product Manufa
cturing Information (PMI)---4.0---2014-10-13''CAx-IF Rec.Pracs.---3D Tessellated Geometry---0.4---2014-09-14''2;1','STEP AP242 Edition 2''CAx-IF Rec.Pracs.---Representation and Presentation of Product Manufa
cturing Information (PMI)---4.0---2014-10-13''CAx-IF Rec.Pracs.---3D Tessellated Geometry---0.4---2014-09-14''2;1''CAx-IF Rec.Pracs.---User Defined Attributes---1.5---2016-08-15'),'2;1');
/*name */
/*time_stamp */
/*author */
/*organization */
/*preprocessor_version */
/*originating_system */
/*authorisation */
FILE_NAME('/vol/tmp/translate-3725922540321928019/FuelpumpRodTool - Part 1.step','2026-03-13T08:53:58',(''),(''),'ST-DEVELOPER v20','ONSHAPE BY PTC INC, 1.211','  ');
FILE_SCHEMA(('AP242_MANAGED_MODEL_BASED_3D_ENGINEERING_MIM_LF { 1 0 10303 442 3 1 4 }'));
ENDSEC;
DATA;
#10=SHAPE_REPRESENTATION_RELATIONSHIP('','',#297,#11);
#11=ADVANCED_BREP_SHAPE_REPRESENTATION('',(#295),#497);
#12=PLANE('',#302);
#13=PLANE('',#306);
#14=PLANE('',#307);
#15=PLANE('',#311);
#16=PLANE('',#312);
#17=PLANE('',#313);
#18=PLANE('',#316);
#19=PLANE('',#329);
#20=PLANE('',#330);
#21=LINE('',#422,#41);
#22=LINE('',#426,#42);
#23=LINE('',#428,#43);
#24=LINE('',#430,#44);
#25=LINE('',#432,#45);
#26=LINE('',#438,#46);
#27=LINE('',#440,#47);
#28=LINE('',#443,#48);
#29=LINE('',#445,#49);
#30=LINE('',#447,#50);
#31=LINE('',#449,#51);
#32=LINE('',#452,#52);
#33=LINE('',#454,#53);
#34=LINE('',#456,#54);
#35=LINE('',#458,#55);
#36=LINE('',#464,#56);
#37=LINE('',#465,#57);
#38=LINE('',#467,#58);
#39=LINE('',#470,#59);
#40=LINE('',#471,#60);
#41=VECTOR('',#337,1.);
#42=VECTOR('',#340,1.);
#43=VECTOR('',#343,1.);
#44=VECTOR('',#344,1.);
#45=VECTOR('',#345,1.);
#46=VECTOR('',#352,1.);
#47=VECTOR('',#355,1.);
#48=VECTOR('',#356,1.);
#49=VECTOR('',#357,1.);
#50=VECTOR('',#358,1.);
#51=VECTOR('',#361,1.);
#52=VECTOR('',#362,1.);
#53=VECTOR('',#363,1.);
#54=VECTOR('',#364,1.);
#55=VECTOR('',#367,1.);
#56=VECTOR('',#374,1.);
#57=VECTOR('',#375,1.);
#58=VECTOR('',#378,1.);
#59=VECTOR('',#379,1.);
#60=VECTOR('',#380,1.);
#61=ORIENTED_EDGE('',*,*,#133,.F.);
#62=ORIENTED_EDGE('',*,*,#134,.T.);
#63=ORIENTED_EDGE('',*,*,#135,.T.);
#64=ORIENTED_EDGE('',*,*,#136,.F.);
#65=ORIENTED_EDGE('',*,*,#137,.F.);
#66=ORIENTED_EDGE('',*,*,#136,.T.);
#67=ORIENTED_EDGE('',*,*,#138,.T.);
#68=ORIENTED_EDGE('',*,*,#139,.F.);
#69=ORIENTED_EDGE('',*,*,#140,.F.);
#70=ORIENTED_EDGE('',*,*,#139,.T.);
#71=ORIENTED_EDGE('',*,*,#141,.T.);
#72=ORIENTED_EDGE('',*,*,#142,.F.);
#73=ORIENTED_EDGE('',*,*,#143,.F.);
#74=ORIENTED_EDGE('',*,*,#144,.T.);
#75=ORIENTED_EDGE('',*,*,#145,.T.);
#76=ORIENTED_EDGE('',*,*,#146,.F.);
#77=ORIENTED_EDGE('',*,*,#147,.F.);
#78=ORIENTED_EDGE('',*,*,#148,.T.);
#79=ORIENTED_EDGE('',*,*,#149,.T.);
#80=ORIENTED_EDGE('',*,*,#150,.F.);
#81=ORIENTED_EDGE('',*,*,#151,.F.);
#82=ORIENTED_EDGE('',*,*,#152,.T.);
#83=ORIENTED_EDGE('',*,*,#150,.T.);
#84=ORIENTED_EDGE('',*,*,#153,.F.);
#85=ORIENTED_EDGE('',*,*,#134,.F.);
#86=ORIENTED_EDGE('',*,*,#154,.T.);
#87=ORIENTED_EDGE('',*,*,#142,.T.);
#88=ORIENTED_EDGE('',*,*,#155,.F.);
#89=ORIENTED_EDGE('',*,*,#156,.F.);
#90=ORIENTED_EDGE('',*,*,#157,.T.);
#91=ORIENTED_EDGE('',*,*,#151,.T.);
#92=ORIENTED_EDGE('',*,*,#158,.F.);
#93=ORIENTED_EDGE('',*,*,#159,.F.);
#94=ORIENTED_EDGE('',*,*,#160,.T.);
#95=ORIENTED_EDGE('',*,*,#161,.T.);
#96=ORIENTED_EDGE('',*,*,#162,.F.);
#97=ORIENTED_EDGE('',*,*,#144,.F.);
#98=ORIENTED_EDGE('',*,*,#163,.T.);
#99=ORIENTED_EDGE('',*,*,#156,.T.);
#100=ORIENTED_EDGE('',*,*,#164,.T.);
#101=ORIENTED_EDGE('',*,*,#160,.F.);
#102=ORIENTED_EDGE('',*,*,#165,.T.);
#103=ORIENTED_EDGE('',*,*,#146,.T.);
#104=ORIENTED_EDGE('',*,*,#166,.F.);
#105=ORIENTED_EDGE('',*,*,#148,.F.);
#106=ORIENTED_EDGE('',*,*,#162,.T.);
#107=ORIENTED_EDGE('',*,*,#159,.T.);
#108=ORIENTED_EDGE('',*,*,#167,.F.);
#109=ORIENTED_EDGE('',*,*,#161,.F.);
#110=ORIENTED_EDGE('',*,*,#168,.T.);
#111=ORIENTED_EDGE('',*,*,#167,.T.);
#112=ORIENTED_EDGE('',*,*,#164,.F.);
#113=ORIENTED_EDGE('',*,*,#158,.T.);
#114=ORIENTED_EDGE('',*,*,#153,.T.);
#115=ORIENTED_EDGE('',*,*,#149,.F.);
#116=ORIENTED_EDGE('',*,*,#166,.T.);
#117=ORIENTED_EDGE('',*,*,#145,.F.);
#118=ORIENTED_EDGE('',*,*,#135,.F.);
#119=ORIENTED_EDGE('',*,*,#155,.T.);
#120=ORIENTED_EDGE('',*,*,#141,.F.);
#121=ORIENTED_EDGE('',*,*,#138,.F.);
#122=ORIENTED_EDGE('',*,*,#168,.F.);
#123=ORIENTED_EDGE('',*,*,#163,.F.);
#124=ORIENTED_EDGE('',*,*,#143,.T.);
#125=ORIENTED_EDGE('',*,*,#165,.F.);
#126=ORIENTED_EDGE('',*,*,#147,.T.);
#127=ORIENTED_EDGE('',*,*,#152,.F.);
#128=ORIENTED_EDGE('',*,*,#157,.F.);
#129=ORIENTED_EDGE('',*,*,#154,.F.);
#130=ORIENTED_EDGE('',*,*,#133,.T.);
#131=ORIENTED_EDGE('',*,*,#137,.T.);
#132=ORIENTED_EDGE('',*,*,#140,.T.);
#133=EDGE_CURVE('',#169,#170,#195,.T.);
#134=EDGE_CURVE('',#169,#171,#21,.T.);
#135=EDGE_CURVE('',#171,#172,#196,.T.);
#136=EDGE_CURVE('',#170,#172,#22,.T.);
#137=EDGE_CURVE('',#170,#173,#23,.T.);
#138=EDGE_CURVE('',#172,#174,#24,.T.);
#139=EDGE_CURVE('',#173,#174,#25,.T.);
#140=EDGE_CURVE('',#173,#175,#197,.T.);
#141=EDGE_CURVE('',#174,#176,#198,.T.);
#142=EDGE_CURVE('',#175,#176,#26,.T.);
#143=EDGE_CURVE('',#177,#178,#27,.T.);
#144=EDGE_CURVE('',#177,#179,#28,.T.);
#145=EDGE_CURVE('',#179,#180,#29,.T.);
#146=EDGE_CURVE('',#178,#180,#30,.T.);
#147=EDGE_CURVE('',#181,#182,#31,.T.);
#148=EDGE_CURVE('',#181,#183,#32,.T.);
#149=EDGE_CURVE('',#183,#184,#33,.T.);
#150=EDGE_CURVE('',#182,#184,#34,.T.);
#151=EDGE_CURVE('',#185,#186,#35,.T.);
#152=EDGE_CURVE('',#185,#182,#199,.T.);
#153=EDGE_CURVE('',#186,#184,#200,.T.);
#154=EDGE_CURVE('',#169,#175,#36,.T.);
#155=EDGE_CURVE('',#171,#176,#37,.T.);
#156=EDGE_CURVE('',#187,#188,#38,.T.);
#157=EDGE_CURVE('',#187,#185,#39,.T.);
#158=EDGE_CURVE('',#188,#186,#40,.T.);
#159=EDGE_CURVE('',#189,#189,#201,.T.);
#160=EDGE_CURVE('',#190,#190,#202,.T.);
#161=EDGE_CURVE('',#191,#191,#203,.T.);
#162=EDGE_CURVE('',#192,#192,#204,.T.);
#163=EDGE_CURVE('',#177,#187,#205,.T.);
#164=EDGE_CURVE('',#188,#179,#206,.T.);
#165=EDGE_CURVE('',#181,#178,#207,.T.);
#166=EDGE_CURVE('',#183,#180,#208,.T.);
#167=EDGE_CURVE('',#193,#193,#209,.T.);
#168=EDGE_CURVE('',#194,#194,#210,.T.);
#169=VERTEX_POINT('',#420);
#170=VERTEX_POINT('',#421);
#171=VERTEX_POINT('',#423);
#172=VERTEX_POINT('',#425);
#173=VERTEX_POINT('',#429);
#174=VERTEX_POINT('',#431);
#175=VERTEX_POINT('',#435);
#176=VERTEX_POINT('',#437);
#177=VERTEX_POINT('',#441);
#178=VERTEX_POINT('',#442);
#179=VERTEX_POINT('',#444);
#180=VERTEX_POINT('',#446);
#181=VERTEX_POINT('',#450);
#182=VERTEX_POINT('',#451);
#183=VERTEX_POINT('',#453);
#184=VERTEX_POINT('',#455);
#185=VERTEX_POINT('',#459);
#186=VERTEX_POINT('',#460);
#187=VERTEX_POINT('',#468);
#188=VERTEX_POINT('',#469);
#189=VERTEX_POINT('',#474);
#190=VERTEX_POINT('',#476);
#191=VERTEX_POINT('',#479);
#192=VERTEX_POINT('',#481);
#193=VERTEX_POINT('',#490);
#194=VERTEX_POINT('',#493);
#195=CIRCLE('',#300,0.0045);
#196=CIRCLE('',#301,0.0045);
#197=CIRCLE('',#304,0.0045);
#198=CIRCLE('',#305,0.0045);
#199=CIRCLE('',#309,0.0105);
#200=CIRCLE('',#310,0.0105);
#201=CIRCLE('',#314,0.005);
#202=CIRCLE('',#315,0.0085);
#203=CIRCLE('',#317,0.005);
#204=CIRCLE('',#318,0.0085);
#205=CIRCLE('',#320,0.0085);
#206=CIRCLE('',#321,0.0085);
#207=CIRCLE('',#323,0.0085);
#208=CIRCLE('',#324,0.0085);
#209=CIRCLE('',#326,0.005);
#210=CIRCLE('',#328,0.005);
#211=EDGE_LOOP('',(#61,#62,#63,#64));
#212=EDGE_LOOP('',(#65,#66,#67,#68));
#213=EDGE_LOOP('',(#69,#70,#71,#72));
#214=EDGE_LOOP('',(#73,#74,#75,#76));
#215=EDGE_LOOP('',(#77,#78,#79,#80));
#216=EDGE_LOOP('',(#81,#82,#83,#84));
#217=EDGE_LOOP('',(#85,#86,#87,#88));
#218=EDGE_LOOP('',(#89,#90,#91,#92));
#219=EDGE_LOOP('',(#93));
#220=EDGE_LOOP('',(#94));
#221=EDGE_LOOP('',(#95));
#222=EDGE_LOOP('',(#96));
#223=EDGE_LOOP('',(#97,#98,#99,#100));
#224=EDGE_LOOP('',(#101));
#225=EDGE_LOOP('',(#102,#103,#104,#105));
#226=EDGE_LOOP('',(#106));
#227=EDGE_LOOP('',(#107));
#228=EDGE_LOOP('',(#108));
#229=EDGE_LOOP('',(#109));
#230=EDGE_LOOP('',(#110));
#231=EDGE_LOOP('',(#111));
#232=EDGE_LOOP('',(#112,#113,#114,#115,#116,#117));
#233=EDGE_LOOP('',(#118,#119,#120,#121));
#234=EDGE_LOOP('',(#122));
#235=EDGE_LOOP('',(#123,#124,#125,#126,#127,#128));
#236=EDGE_LOOP('',(#129,#130,#131,#132));
#237=FACE_BOUND('',#211,.T.);
#238=FACE_BOUND('',#212,.T.);
#239=FACE_BOUND('',#213,.T.);
#240=FACE_BOUND('',#214,.T.);
#241=FACE_BOUND('',#215,.T.);
#242=FACE_BOUND('',#216,.T.);
#243=FACE_BOUND('',#217,.T.);
#244=FACE_BOUND('',#218,.T.);
#245=FACE_BOUND('',#219,.T.);
#246=FACE_BOUND('',#220,.T.);
#247=FACE_BOUND('',#221,.T.);
#248=FACE_BOUND('',#222,.T.);
#249=FACE_BOUND('',#223,.T.);
#250=FACE_BOUND('',#224,.T.);
#251=FACE_BOUND('',#225,.T.);
#252=FACE_BOUND('',#226,.T.);
#253=FACE_BOUND('',#227,.T.);
#254=FACE_BOUND('',#228,.T.);
#255=FACE_BOUND('',#229,.T.);
#256=FACE_BOUND('',#230,.T.);
#257=FACE_BOUND('',#231,.T.);
#258=FACE_BOUND('',#232,.T.);
#259=FACE_BOUND('',#233,.T.);
#260=FACE_BOUND('',#234,.T.);
#261=FACE_BOUND('',#235,.T.);
#262=FACE_BOUND('',#236,.T.);
#263=CYLINDRICAL_SURFACE('',#299,0.0045);
#264=CYLINDRICAL_SURFACE('',#303,0.0045);
#265=CYLINDRICAL_SURFACE('',#308,0.0105);
#266=CYLINDRICAL_SURFACE('',#319,0.0085);
#267=CYLINDRICAL_SURFACE('',#322,0.0085);
#268=CYLINDRICAL_SURFACE('',#325,0.005);
#269=CYLINDRICAL_SURFACE('',#327,0.005);
#270=ADVANCED_FACE('',(#237),#263,.F.);
#271=ADVANCED_FACE('',(#238),#12,.F.);
#272=ADVANCED_FACE('',(#239),#264,.F.);
#273=ADVANCED_FACE('',(#240),#13,.F.);
#274=ADVANCED_FACE('',(#241),#14,.F.);
#275=ADVANCED_FACE('',(#242),#265,.T.);
#276=ADVANCED_FACE('',(#243),#15,.T.);
#277=ADVANCED_FACE('',(#244),#16,.T.);
#278=ADVANCED_FACE('',(#245,#246),#17,.T.);
#279=ADVANCED_FACE('',(#247,#248),#18,.T.);
#280=ADVANCED_FACE('',(#249,#250),#266,.T.);
#281=ADVANCED_FACE('',(#251,#252),#267,.T.);
#282=ADVANCED_FACE('',(#253,#254),#268,.F.);
#283=ADVANCED_FACE('',(#255,#256),#269,.F.);
#284=ADVANCED_FACE('',(#257,#258,#259,#260),#19,.F.);
#285=ADVANCED_FACE('',(#261,#262),#20,.T.);
#286=CLOSED_SHELL('',(#270,#271,#272,#273,#274,#275,#276,#277,#278,#279,#280,#281,#282,#283,#284,#285));
#287=STYLED_ITEM('',(#288),#295);
#288=PRESENTATION_STYLE_ASSIGNMENT((#289));
#289=SURFACE_STYLE_USAGE(.BOTH.,#290);
#290=SURFACE_SIDE_STYLE('',(#291));
#291=SURFACE_STYLE_FILL_AREA(#292);
#292=FILL_AREA_STYLE('',(#293));
#293=FILL_AREA_STYLE_COLOUR('',#294);
#294=COLOUR_RGB('',0.615686274509804,0.811764705882353,0.929411764705882);
#295=MANIFOLD_SOLID_BREP('Part 1',#286);
#296=SHAPE_DEFINITION_REPRESENTATION(#502,#297);
#297=SHAPE_REPRESENTATION('Part 1',(#298),#497);
#298=AXIS2_PLACEMENT_3D('',#417,#331,#332);
#299=AXIS2_PLACEMENT_3D('',#418,#333,#334);
#300=AXIS2_PLACEMENT_3D('',#419,#335,#336);
#301=AXIS2_PLACEMENT_3D('',#424,#338,#339);
#302=AXIS2_PLACEMENT_3D('',#427,#341,#342);
#303=AXIS2_PLACEMENT_3D('',#433,#346,#347);
#304=AXIS2_PLACEMENT_3D('',#434,#348,#349);
#305=AXIS2_PLACEMENT_3D('',#436,#350,#351);
#306=AXIS2_PLACEMENT_3D('',#439,#353,#354);
#307=AXIS2_PLACEMENT_3D('',#448,#359,#360);
#308=AXIS2_PLACEMENT_3D('',#457,#365,#366);
#309=AXIS2_PLACEMENT_3D('',#461,#368,#369);
#310=AXIS2_PLACEMENT_3D('',#462,#370,#371);
#311=AXIS2_PLACEMENT_3D('',#463,#372,#373);
#312=AXIS2_PLACEMENT_3D('',#466,#376,#377);
#313=AXIS2_PLACEMENT_3D('',#472,#381,#382);
#314=AXIS2_PLACEMENT_3D('',#473,#383,#384);
#315=AXIS2_PLACEMENT_3D('',#475,#385,#386);
#316=AXIS2_PLACEMENT_3D('',#477,#387,#388);
#317=AXIS2_PLACEMENT_3D('',#478,#389,#390);
#318=AXIS2_PLACEMENT_3D('',#480,#391,#392);
#319=AXIS2_PLACEMENT_3D('',#482,#393,#394);
#320=AXIS2_PLACEMENT_3D('',#483,#395,#396);
#321=AXIS2_PLACEMENT_3D('',#484,#397,#398);
#322=AXIS2_PLACEMENT_3D('',#485,#399,#400);
#323=AXIS2_PLACEMENT_3D('',#486,#401,#402);
#324=AXIS2_PLACEMENT_3D('',#487,#403,#404);
#325=AXIS2_PLACEMENT_3D('',#488,#405,#406);
#326=AXIS2_PLACEMENT_3D('',#489,#407,#408);
#327=AXIS2_PLACEMENT_3D('',#491,#409,#410);
#328=AXIS2_PLACEMENT_3D('',#492,#411,#412);
#329=AXIS2_PLACEMENT_3D('',#494,#413,#414);
#330=AXIS2_PLACEMENT_3D('',#495,#415,#416);
#331=DIRECTION('',(0.,0.,1.));
#332=DIRECTION('',(1.,0.,0.));
#333=DIRECTION('',(0.,0.,-1.));
#334=DIRECTION('',(-1.,0.,0.));
#335=DIRECTION('',(0.,0.,-1.));
#336=DIRECTION('',(1.,0.,0.));
#337=DIRECTION('',(0.,0.,-1.));
#338=DIRECTION('',(0.,0.,-1.));
#339=DIRECTION('',(1.,0.,0.));
#340=DIRECTION('',(0.,0.,-1.));
#341=DIRECTION('',(-1.,0.,0.));
#342=DIRECTION('',(0.,0.,1.));
#343=DIRECTION('',(0.,1.,0.));
#344=DIRECTION('',(0.,1.,0.));
#345=DIRECTION('',(0.,0.,-1.));
#346=DIRECTION('',(0.,0.,-1.));
#347=DIRECTION('',(-1.,0.,0.));
#348=DIRECTION('',(0.,0.,-1.));
#349=DIRECTION('',(1.,0.,0.));
#350=DIRECTION('',(0.,0.,-1.));
#351=DIRECTION('',(1.,0.,0.));
#352=DIRECTION('',(0.,0.,-1.));
#353=DIRECTION('',(0.,1.,0.));
#354=DIRECTION('',(0.,0.,1.));
#355=DIRECTION('',(1.,0.,0.));
#356=DIRECTION('',(0.,0.,-1.));
#357=DIRECTION('',(1.,0.,0.));
#358=DIRECTION('',(0.,0.,-1.));
#359=DIRECTION('',(-0.32715202134923,-0.944971721760558,0.));
#360=DIRECTION('',(0.944971721760558,-0.32715202134923,0.));
#361=DIRECTION('',(-0.944971721760558,0.32715202134923,0.));
#362=DIRECTION('',(0.,0.,-1.));
#363=DIRECTION('',(-0.944971721760558,0.32715202134923,0.));
#364=DIRECTION('',(0.,0.,-1.));
#365=DIRECTION('',(0.,0.,-1.));
#366=DIRECTION('',(-1.,0.,0.));
#367=DIRECTION('',(0.,0.,-1.));
#368=DIRECTION('',(0.,0.,-1.));
#369=DIRECTION('',(1.,0.,0.));
#370=DIRECTION('',(0.,0.,-1.));
#371=DIRECTION('',(1.,0.,0.));
#372=DIRECTION('',(-1.,0.,0.));
#373=DIRECTION('',(0.,0.,1.));
#374=DIRECTION('',(0.,1.,0.));
#375=DIRECTION('',(0.,1.,0.));
#376=DIRECTION('',(-0.32715202134923,0.944971721760558,0.));
#377=DIRECTION('',(-0.944971721760558,-0.32715202134923,0.));
#378=DIRECTION('',(0.,0.,-1.));
#379=DIRECTION('',(0.944971721760558,0.32715202134923,0.));
#380=DIRECTION('',(0.944971721760558,0.32715202134923,0.));
#381=DIRECTION('',(0.,0.,1.));
#382=DIRECTION('',(1.,0.,0.));
#383=DIRECTION('',(0.,0.,1.));
#384=DIRECTION('',(1.,0.,0.));
#385=DIRECTION('',(0.,0.,1.));
#386=DIRECTION('',(1.,0.,0.));
#387=DIRECTION('',(0.,0.,1.));
#388=DIRECTION('',(1.,0.,0.));
#389=DIRECTION('',(0.,0.,-1.));
#390=DIRECTION('',(1.,0.,0.));
#391=DIRECTION('',(0.,0.,-1.));
#392=DIRECTION('',(1.,0.,0.));
#393=DIRECTION('',(0.,0.,-1.));
#394=DIRECTION('',(-1.,0.,0.));
#395=DIRECTION('',(0.,0.,1.));
#396=DIRECTION('',(1.,0.,0.));
#397=DIRECTION('',(0.,0.,1.));
#398=DIRECTION('',(1.,0.,0.));
#399=DIRECTION('',(0.,0.,-1.));
#400=DIRECTION('',(-1.,0.,0.));
#401=DIRECTION('',(0.,0.,1.));
#402=DIRECTION('',(1.,0.,0.));
#403=DIRECTION('',(0.,0.,-1.));
#404=DIRECTION('',(1.,0.,0.));
#405=DIRECTION('',(0.,0.,-1.));
#406=DIRECTION('',(-1.,0.,0.));
#407=DIRECTION('',(0.,0.,1.));
#408=DIRECTION('',(1.,0.,0.));
#409=DIRECTION('',(0.,0.,-1.));
#410=DIRECTION('',(-1.,0.,0.));
#411=DIRECTION('',(0.,0.,-1.));
#412=DIRECTION('',(1.,0.,0.));
#413=DIRECTION('',(0.,0.,1.));
#414=DIRECTION('',(1.,0.,0.));
#415=DIRECTION('',(0.,0.,1.));
#416=DIRECTION('',(1.,0.,0.));
#417=CARTESIAN_POINT('',(0.,0.,0.));
#418=CARTESIAN_POINT('',(0.,-2.75545529808154E-19,0.003));
#419=CARTESIAN_POINT('',(0.,-2.75545529808154E-19,0.0022));
#420=CARTESIAN_POINT('',(0.0045,0.,0.0022));
#421=CARTESIAN_POINT('',(-0.0045,5.51091059616309E-19,0.0022));
#422=CARTESIAN_POINT('',(0.0045,0.,0.003));
#423=CARTESIAN_POINT('',(0.0045,0.,0.));
#424=CARTESIAN_POINT('',(0.,-2.75545529808154E-19,0.));
#425=CARTESIAN_POINT('',(-0.0045,5.51091059616309E-19,0.));
#426=CARTESIAN_POINT('',(-0.0045,5.51091059616309E-19,0.003));
#427=CARTESIAN_POINT('',(-0.0045,0.0015,0.003));
#428=CARTESIAN_POINT('',(-0.0045,0.0015,0.0022));
#429=CARTESIAN_POINT('',(-0.0045,0.003,0.0022));
#430=CARTESIAN_POINT('',(-0.0045,0.0015,0.));
#431=CARTESIAN_POINT('',(-0.0045,0.003,0.));
#432=CARTESIAN_POINT('',(-0.0045,0.003,0.003));
#433=CARTESIAN_POINT('',(0.,0.003,0.003));
#434=CARTESIAN_POINT('',(0.,0.003,0.0022));
#435=CARTESIAN_POINT('',(0.0045,0.003,0.0022));
#436=CARTESIAN_POINT('',(0.,0.003,0.));
#437=CARTESIAN_POINT('',(0.0045,0.003,0.));
#438=CARTESIAN_POINT('',(0.0045,0.003,0.003));
#439=CARTESIAN_POINT('',(0.,-0.011,0.003));
#440=CARTESIAN_POINT('',(0.,-0.011,0.0022));
#441=CARTESIAN_POINT('',(-0.022,-0.011,0.0022));
#442=CARTESIAN_POINT('',(0.022,-0.011,0.0022));
#443=CARTESIAN_POINT('',(-0.022,-0.011,0.003));
#444=CARTESIAN_POINT('',(-0.022,-0.011,0.));
#445=CARTESIAN_POINT('',(0.,-0.011,0.));
#446=CARTESIAN_POINT('',(0.022,-0.011,0.));
#447=CARTESIAN_POINT('',(0.022,-0.011,0.003));
#448=CARTESIAN_POINT('',(0.0141079442028177,0.0092272313567253,0.003));
#449=CARTESIAN_POINT('',(0.0141079442028177,0.0092272313567253,0.0022));
#450=CARTESIAN_POINT('',(0.0247807921814685,0.00553225963496474,0.0022));
#451=CARTESIAN_POINT('',(0.00343509622416691,0.0129222030784859,0.0022));
#452=CARTESIAN_POINT('',(0.0247807921814685,0.00553225963496474,0.003));
#453=CARTESIAN_POINT('',(0.0247807921814685,0.00553225963496474,0.));
#454=CARTESIAN_POINT('',(0.0141079442028177,0.0092272313567253,0.));
#455=CARTESIAN_POINT('',(0.00343509622416691,0.0129222030784859,0.));
#456=CARTESIAN_POINT('',(0.00343509622416691,0.0129222030784859,0.003));
#457=CARTESIAN_POINT('',(-4.33680868994202E-19,0.003,0.003));
#458=CARTESIAN_POINT('',(-0.00343509622416691,0.0129222030784859,0.003));
#459=CARTESIAN_POINT('',(-0.00343509622416691,0.0129222030784859,0.0022));
#460=CARTESIAN_POINT('',(-0.00343509622416691,0.0129222030784859,0.));
#461=CARTESIAN_POINT('',(-4.33680868994202E-19,0.003,0.0022));
#462=CARTESIAN_POINT('',(-4.33680868994202E-19,0.003,0.));
#463=CARTESIAN_POINT('',(0.0045,0.0015,0.003));
#464=CARTESIAN_POINT('',(0.0045,0.0015,0.0022));
#465=CARTESIAN_POINT('',(0.0045,0.0015,0.));
#466=CARTESIAN_POINT('',(-0.0141079442028177,0.00922723135672529,0.003));
#467=CARTESIAN_POINT('',(-0.0247807921814685,0.00553225963496474,0.003));
#468=CARTESIAN_POINT('',(-0.0247807921814685,0.00553225963496474,0.0022));
#469=CARTESIAN_POINT('',(-0.0247807921814685,0.00553225963496474,0.));
#470=CARTESIAN_POINT('',(-0.0141079442028177,0.00922723135672529,0.0022));
#471=CARTESIAN_POINT('',(-0.0141079442028177,0.00922723135672529,0.));
#472=CARTESIAN_POINT('',(0.,0.00125,0.003));
#473=CARTESIAN_POINT('',(-0.022,-0.0025,0.003));
#474=CARTESIAN_POINT('',(-0.017,-0.0025,0.003));
#475=CARTESIAN_POINT('',(-0.022,-0.0025,0.003));
#476=CARTESIAN_POINT('',(-0.0135,-0.0025,0.003));
#477=CARTESIAN_POINT('',(0.,0.00125,0.003));
#478=CARTESIAN_POINT('',(0.022,-0.0025,0.003));
#479=CARTESIAN_POINT('',(0.027,-0.0025,0.003));
#480=CARTESIAN_POINT('',(0.022,-0.0025,0.003));
#481=CARTESIAN_POINT('',(0.0305,-0.0025,0.003));
#482=CARTESIAN_POINT('',(-0.022,-0.0025,0.003));
#483=CARTESIAN_POINT('',(-0.022,-0.0025,0.0022));
#484=CARTESIAN_POINT('',(-0.022,-0.0025,0.));
#485=CARTESIAN_POINT('',(0.022,-0.0025,0.003));
#486=CARTESIAN_POINT('',(0.022,-0.0025,0.0022));
#487=CARTESIAN_POINT('',(0.022,-0.0025,0.));
#488=CARTESIAN_POINT('',(-0.022,-0.0025,0.003));
#489=CARTESIAN_POINT('',(-0.022,-0.0025,0.));
#490=CARTESIAN_POINT('',(-0.017,-0.0025,0.));
#491=CARTESIAN_POINT('',(0.022,-0.0025,0.003));
#492=CARTESIAN_POINT('',(0.022,-0.0025,0.));
#493=CARTESIAN_POINT('',(0.027,-0.0025,0.));
#494=CARTESIAN_POINT('',(0.,0.00125,0.));
#495=CARTESIAN_POINT('',(0.,0.00125,0.0022));
#496=MECHANICAL_DESIGN_GEOMETRIC_PRESENTATION_REPRESENTATION('',(#287),#497);
#497=(
GEOMETRIC_REPRESENTATION_CONTEXT(3)
GLOBAL_UNCERTAINTY_ASSIGNED_CONTEXT((#498))
GLOBAL_UNIT_ASSIGNED_CONTEXT((#501,#500,#499))
REPRESENTATION_CONTEXT('Part 1','TOP_LEVEL_ASSEMBLY_PART')
);
#498=UNCERTAINTY_MEASURE_WITH_UNIT(LENGTH_MEASURE(1.E-08),#501,'DISTANCE_ACCURACY_VALUE','Maximum Tolerance applied to model');
#499=(
NAMED_UNIT(*)
SI_UNIT($,.STERADIAN.)
SOLID_ANGLE_UNIT()
);
#500=(
NAMED_UNIT(*)
PLANE_ANGLE_UNIT()
SI_UNIT($,.RADIAN.)
);
#501=(
LENGTH_UNIT()
NAMED_UNIT(*)
SI_UNIT($,.METRE.)
);
#502=PRODUCT_DEFINITION_SHAPE('','',#503);
#503=PRODUCT_DEFINITION('','',#505,#504);
#504=PRODUCT_DEFINITION_CONTEXT('',#511,'design');
#505=PRODUCT_DEFINITION_FORMATION_WITH_SPECIFIED_SOURCE('','',#507,.NOT_KNOWN.);
#506=PRODUCT_RELATED_PRODUCT_CATEGORY('','',(#507));
#507=PRODUCT('Part 1','Part 1','Part 1',(#509));
#508=PRODUCT_CATEGORY('','');
#509=PRODUCT_CONTEXT('',#511,'mechanical');
#510=APPLICATION_PROTOCOL_DEFINITION('international standard','ap242_managed_model_based_3d_engineering',2020,#511);
#511=APPLICATION_CONTEXT('managed model based 3d engineering');
ENDSEC;
END-ISO-10303-21;
